Daniel Amos Message Board
Register Calendar Members List Team Members Search Frequently Asked Questions Go to the Main Page

Daniel Amos Message Board » DA Related Discussion » General Discussion » Tabs, Transcriptions and Songbooks » Hello Guest [Login|Register]
Last Post | First Unread Post Print Page | Add Thread to Favorites
Post New Thread Post Reply
Go to the bottom of this page Tabs, Transcriptions and Songbooks
Author
Post « Previous Thread | Next Thread »
clonliness clonliness is a male
Mind Peach


images/avatars/avatar-105.jpg

Registration Date: 04-06-2006
Posts: 102
Location: He's a real nowhere man, living in his nowhere land, making all his nowhere plans for nobody.

Tabs, Transcriptions and Songbooks Reply to this Post Post Reply with Quote Edit/Delete Posts Report Post to a Moderator       Go to the top of this page

I would love to get ahold of some well done transcriptions for da stuff. Is there a songbook anywhere? A lot of the ones I've found online have been oversimplified or incorrect. I've transcribed several myself, (as have various family members), but that can be rather time consuming. It would be great Cool if a songbook was available <hint>. Big Grin Also da definately has the feel of a band whose fans are musically oriented themselves. Perhaps someone here knows of a source for accurate da transcriptions?

__________________

"Has anyone ever noticed that my name is mis-spelled"?
-cloneliness
04-07-2006 11:58 clonliness is offline Search for Posts by clonliness Add clonliness to your Buddy List
Audiori J Audiori J is a male
Administrator


images/avatars/avatar-103.jpg

Registration Date: 11-27-2004
Posts: 7,681
Location: "Clowns to the left of me! Jokers to the right! Here I AM stuck in the middle with you." - Stealers Wheel

Reply to this Post Post Reply with Quote Edit/Delete Posts Report Post to a Moderator       Go to the top of this page

My brother has transcribed a few songs, if enough people could gather enough transcriptions we might look into printing something. I don't think the band has much actually transcribed, Terry does a lot in his enormous swaying genius head I think.

I think my brother worked on "Sanctuary", "After All These Years", seems like a couple others...not sure.

__________________
"Education is the ability to listen to almost anything without losing your temper or your self-confidence." ~ Robert Frost
04-07-2006 12:12 Audiori J is online Send an Email to Audiori J Search for Posts by Audiori J Add Audiori J to your Buddy List
jiminy
Tallowy Tamale


Registration Date: 11-16-2002
Posts: 9,494

Reply to this Post Post Reply with Quote Edit/Delete Posts Report Post to a Moderator       Go to the top of this page

I wouldnt know how to read one if it were done.
i am a fake and a phoney.

__________________
jiMinY


theres nothing to EVER put here that will please everyone-let alone anyone.
04-07-2006 12:19 jiminy is offline Send an Email to jiminy Search for Posts by jiminy Add jiminy to your Buddy List
clonliness clonliness is a male
Mind Peach


images/avatars/avatar-105.jpg

Registration Date: 04-06-2006
Posts: 102
Location: He's a real nowhere man, living in his nowhere land, making all his nowhere plans for nobody.

Thread Starter Thread Started by clonliness
Reply to this Post Post Reply with Quote Edit/Delete Posts Report Post to a Moderator       Go to the top of this page

Not to worry you phonies and fakes, a good transcriptionist knows how to dumb things down for the self-educated. As to compiling some stuff; what a great idea! I would love to see what other people have come up with.

__________________

"Has anyone ever noticed that my name is mis-spelled"?
-cloneliness
04-07-2006 12:35 clonliness is offline Search for Posts by clonliness Add clonliness to your Buddy List
navfox navfox is a male
Sublime Brain Puppet

images/avatars/avatar-448.gif

Registration Date: 06-17-2002
Posts: 94
Location: Brazoria, Texas

Tabs Reply to this Post Post Reply with Quote Edit/Delete Posts Report Post to a Moderator       Go to the top of this page

I know Jason has many translations on his Tim Chandler page. BP

http://members.tripod.com/~BPlusChords/daindex.htm
04-07-2006 13:00 navfox is offline Send an Email to navfox Homepage of navfox Search for Posts by navfox Add navfox to your Buddy List View the MSN Profile for navfox
clonliness clonliness is a male
Mind Peach


images/avatars/avatar-105.jpg

Registration Date: 04-06-2006
Posts: 102
Location: He's a real nowhere man, living in his nowhere land, making all his nowhere plans for nobody.

Thread Starter Thread Started by clonliness
Reply to this Post Post Reply with Quote Edit/Delete Posts Report Post to a Moderator       Go to the top of this page

I had a look at some of them and they were OK. However, (not to be unkind), I don't agree with some of the chord choices, (though the bones of the songs appear to be there). Also what I have in mind is slightly more detailed. Also some of the links on that page are blind and redirect you to an index which goes nowhere. I don't mean to criticize as he's posted waaaay more transcriptions than I have, (0), and I would hate to surrender to shooting down the good-hearted, well intended efforts of a fellow musician. I know if I had some tabs posted and some anonymous jerk online, who had none, started to gripe about them, I'd be royally ticked. Please, don't take offense? Smile

__________________

"Has anyone ever noticed that my name is mis-spelled"?
-cloneliness
04-07-2006 14:35 clonliness is offline Search for Posts by clonliness Add clonliness to your Buddy List
clonliness clonliness is a male
Mind Peach


images/avatars/avatar-105.jpg

Registration Date: 04-06-2006
Posts: 102
Location: He's a real nowhere man, living in his nowhere land, making all his nowhere plans for nobody.

Thread Starter Thread Started by clonliness
Reply to this Post Post Reply with Quote Edit/Delete Posts Report Post to a Moderator       Go to the top of this page

Try this out. Hope it translates to the board. Wink


“Posse In the Sky” by Daniel Amos off of the album “Shotgun Angel” Lyrics and music by the incomparable Terry Scott Taylor
Transcribed by clonliness

This is the way to play this song, to the best of my knowledge. The song is in E major, with a brief switch to C# harmonic minor. I will try to indicate the rhythmic pattern and the chord formation in a logical way. The 1e&a etc. at the top of the grid indicates a way to count the 16th note subdivisions. This should help to indicate the strum pattern.


Intro
/1e&a2e&a3e&a4e&a/1e&a2e&a3e&a4e&a/1e&a2e&a3e&a4e&a/1e&a2e&a3e&a4e&a/
E0-----0-0---0---\0-----0-0---0---\0-----0-0---0---\0-----0-0---0---\--
B0-----0-0---0---/0-----0-0---0---/0-----0-0---0---/0-----0-0---0---/--
G1-----1-1---1---\1-----1-1---1---\1-----1-1---1---\1-----1-1---1---\--
D2-----2-2---2---/2-----2-2---2---/2-----2-2---2---/2-----2-2---2---/--
A2-----2-4---2---\2-----2-4---2---\2-----2-4---2---\2-----2-4---2---\--
E0-----0-0---0---/0-----0-0---0---/0-----0-0---0---/0-----0-0---0---/--


Verse
Fig 1
When the faithful...
/1e&a2e&a3e&a4e&a/1e&a2e&a3e&a4e&a/1e&a2e&a3e&a4e&a/1e&a2e&a3e&a4e&a/
E0-----0-0---0---\0-----0-0---0---\4-----4-4-------\4-4---4---4-----\--
B0-----0-0---0---/0-----0-0---0---/4-----4-4-------/4-4---4---4-----/--
G1-----1-1---1---\1-----1-1---1---\4-----4-4-------\4-4---4---4-----\--
D2-----2-2---2---/2-----2-2---2---/6-----6-6-------/6-6---6---6-----/--
A2-----2-4---2---\2-----2-4---2---\6-----6-6-------\6-6---6---6-----\--
E0-----0-0---0---/0-----0-0---0---/4-----4-4-------/4-4---4---4-----/--


Fig 1 contd
The world will...
/1e&a2e&a3e&a4e&a/1e&a2e&a3e&a4e&a/1e&a2e&a3e&a4e&a/1e&a2e&a3e&a4e&a/
E2-----2---2-----\--2---2---2-2---\0-----0-0---0---\0-----0-0---0---\--
B2-----2---2-----/--2---2---2-2---/0-----0-0---0---/0-----0-0---0---/--
G2-----2---2-----\--2---2---2-2---\1-----1-1---1---\1-----1-1---1---\--
D4-----4---4-----/--4---4---4-4---/2-----2-2---2---/2-----2-2---2---/--
A4-----4---4-----\--4---4---4-4---\2-----2-4---2---\2-----2-4---2---\--
E2-----2---2-----/--2---2---2-2---/0-----0-0---0---/0-----0-0---0---/--


Repeat Fig 1 once then

Chorus
Suddenly there is...
/1e&a2e&a3e&a4e&a/1e&a2e&a3e&a4e&a/1e&a2e&a3e&a4e&a/1e&a2e&a3e&a4e&a/
E4-----4-4-----4-\--4---4-4---4-44\4-----4-4-----4-\--4---4-4---4-44\--
B5-----5-5-----5-/--5---5-5---5-44/4-----4-4-----4-/--4---4-4---4-55/--
G6-----6-6-----6-\--6---6-6---6-55\5-----5-5-----5-\--5---5-5---5-66\--
D6-----6-6-----6-/--6---6-6---6-66/6-----6-6-----6-/--6---6-6---6-66/--
A4-----4-4-----4-\--4---4-4---4-66\6-----6-6-----6-\--6---6-6---6-44\--
EX-----X-X-----X-/--X---X-X---X-44/4-----4-4-----4-/--4---4-4---4-XX/--

Chorus contd
Here comes the...
/1e&a2e&a3e&a4e&a/1e&a2e&a3e&a4e&a/1e&a2e&a3e&a4e&a/1e&a2e&a3e&a4e&a/
E4-----4-4-----4-\--4---4-4---4---\5---5-5---5-5---\7---------------\--
B5-----5-5-----5-/--5---5-5---5---/5---5-5---5-5---/7---------------/--
G6-----6-6-----6-\--6---6-6---6---\6---6-6---6-6---\8---------------\--
D6-----6-6-----6-/--6---6-6---6---/7---7-7---7-7---/9---------------/--
A4-----4-4-----4-\--4---4-4---4---\7---7-7---7-7---\9---------------\--
EX-----X-X-----X-/--X---X-X---X---/5---5-5---5-5---/7---------------/--


Repeat Fig 1 to end Chorus

Repeat Verse and Chorus then Repeat Fig 1

Fig 2

/1e&a2e&a3e&a4e&a/1e&a2e&a3e&a4e&a/1e&a2e&a3e&a4e&a/1e&a2e&a3e&a4e&a/
E4-----2---------\4-----2---------\4-----2---------\0---------------\--
B4-----2---------/4-----2---------/4-----2---------/0---------------/--
G4-----2---------\4-----2---------\4-----2---------\1---------------\--
D6-----4---------/6-----4---------/6-----4---------/2---------------/--
A6-----4---------\6-----4---------\6-----4---------\2---------------\--
E4-----2---------/4-----2---------/4-----2---------/0---------------/--


/1e&a2e&a3e&a4e&a/1e&a2e&a3e&a4e&a/1e&a2e&a3e&a4e&a/
E4-----2---------\4-----2---------\4-----2---------\
B4-----2---------/4-----2---------/4-----2---------/
G4-----2---------\4-----2---------\4-----2---------\
D6-----4---------/6-----4---------/6-----4---------/
A6-----4---------\6-----4---------\6-----4---------\
E4-----2---------/4-----2---------/4-----2---------/

Outtro

/1e&a2e&a3e&a4e&a/1e&a2e&a3e&a4e&a/
E4-----4-----4-4-\0-----0-----0-0-\
B4-----4-----4-4-/2-----2-----2-2-/
G4-----4-----4-4-\1-----1-----1-1-\
D2-----2-----2-2-/2-----2-----2-2-/
A2-----2-----2-2-\0-----0-----0-0-\
E0-----0-----0-0-/x-----x-----x-x-/


Repeat through outtro and end on

/1e&a2e&a3e&a4e&a/
E4---------------\
B4---------------/
G4---------------\
D2---------------/
A2---------------\
E0---------------/


__________________

"Has anyone ever noticed that my name is mis-spelled"?
-cloneliness
04-09-2006 02:00 clonliness is offline Search for Posts by clonliness Add clonliness to your Buddy List
clonliness clonliness is a male
Mind Peach


images/avatars/avatar-105.jpg

Registration Date: 04-06-2006
Posts: 102
Location: He's a real nowhere man, living in his nowhere land, making all his nowhere plans for nobody.

Thread Starter Thread Started by clonliness
Cool Reply to this Post Post Reply with Quote Edit/Delete Posts Report Post to a Moderator       Go to the top of this page

Pleased It worked!! Pleased Big Grin

__________________

"Has anyone ever noticed that my name is mis-spelled"?
-cloneliness
04-09-2006 02:02 clonliness is offline Search for Posts by clonliness Add clonliness to your Buddy List
Tree Structure | Board Structure
Jump to:
Post New Thread Post Reply
Daniel Amos Message Board » DA Related Discussion » General Discussion » Tabs, Transcriptions and Songbooks

Forum Software: Burning Board 2.3.6, Developed by WoltLab GmbH